Song name
# A B C D E F G H I J K L M N O P Q R S T U V W X Y Z

Misc Soundtrack - Twilight Zone Theme tab

there are several ways to play this so i have put them all

e--12-13-12---12-13---12-13-12----------------------------------------------|
b-----------12------12--------12--------------------------------------------|
g---------------------------------------------------------------------------|
d---------------------------------------------------------------------------|
a---------------------------------------------------------------------------|
e---------------------------------------------------------------------------|
or here is the second way

e--2-3-4-3-2--2-3-4-3-2--2-3-4-3-2------------------------------------------|
b---------------------------------------------------------------------------|
g---------------------------------------------------------------------------|
d---------------------------------------------------------------------------|
a---------------------------------------------------------------------------|
e---------------------------------------------------------------------------|
this version is the second way and can be played on any string
here is the third

e-3-4-3-0--3-4-3-0--3-4-3-0--3-4-3-0--3-4-3-0-------------------------------|
b---------------------------------------------------------------------------|
g---------------------------------------------------------------------------|
d---------------------------------------------------------------------------|
a---------------------------------------------------------------------------|
e---------------------------------------------------------------------------|

there is all the twlight zone tabs and they all can be played on any string or on a bass 
plz email at ru4thewwe@yahoo.com
Tap to rate this tab
# A B C D E F G H I J K L M N O P Q R S T U V W X Y Z