Song name
# A B C D E F G H I J K L M N O P Q R S T U V W X Y Z

Misc Soundtrack - Back To The Future Theme tab

STiLLeR - BaCK To THe FuTuRe

e ----------6---------------------11-11-10-8-10-11-
B -9---8--9---9-6---8--9-11-9---9------------------
G ---6------------6-----------8--------------------
D -------------------------------------------------
A -------------------------------------------------
E -------------------------------------------------

e ---4---4-9---------9---8-9-11-9-6---8--9-11-9---9---------------
B -4---4-----11---9----7------------7-----------9---9-9-8-6-8-9---
G --------------8-------------------------------------------------
D ----------------------------------------------------------------
A ----------------------------------------------------------------
E ----------------------------------------------------------------
Tap to rate this tab
# A B C D E F G H I J K L M N O P Q R S T U V W X Y Z