Song name
# A B C D E F G H I J K L M N O P Q R S T U V W X Y Z

Misc Soundtrack - Teenage Mutant Ninja Turtles Theme tab

Teenage Mutant Ninja Turtles
Punk Version

Tabbed by Bevlander

Lyrics Key: T=Teenage, M=Mutant, N=Ninja, T=Turtles, H=Heroes, I=In, 
A=A, H-S=Half-Shell

Tab Key - \ / = Slide, ***** = Palm Mute

INTRO/CHORUS
E|---------------------------------------------|
B|---------------------------------------------|
G|--55555555------------------------5555--3-5--|
D|--55555555--22222222--3333--4444--5555--3-5--|
A|--33333333--22222222--3333--4444--3333--1-3--|
E|------------00000000--1111--2222-------------|
    T-M-N-T   T-M-N-T   T-M - N-T  H-I-A  H-S - TURTLE POWER!

VERSE
E|--------------------------------------------------------------|
B|--------------------------------------------------------------|
G|-----------------------------------5-x-x-5-x-x-5-x-x-5-x-x-5--|
D|--2--------3-----------4-----------5-x-x-5-x-x-5-x-x-5-x-x-5--|
A|--2--------3-----------4-----------3-x-x-3-x-x-3-x-x-3-x-x-3--|
E|--0--------1-----------2--------------------------------------|
    They're..Fearsome..  Fighting..  Team    


E|--------------------------------------------------------------|
B|--------------------------------------------------------------|
G|-----------------------------------5-x-x-5-x-x-5-x-x-5-x-x-5--|
D|--2--------3-----------4-----------5-x-x-5-x-x-5-x-x-5-x-x-5--|
A|--2--------3-----------4-----------3-x-x-3-x-x-3-x-x-3-x-x-3--|
E|--0--------1-----------2--------------------------------------|
    Heroes.. Half..      And..       Green


BRIDGE
E|----------------------------------------|
B|----------------------------------------|
G|----------------------------------------|
D|--333333--555555--6666666--88888--------|
A|--333333--555555--6666666--66666--------|
E|--111111--333333--4444444--66666--\12/--|
    ******  ******  *******  *****
    When..  Attacks.These..  Cut..

ORDER:
INTRO/CHORUS
1st VERSE
BRIDGE
CHORUS
2nd VERSE
BRIDGE
CHORUSLYRICS:

INTRO/CHORUS:
Teenage Mutant Ninja Turtles, Teenage Mutant Ninja Turtles,
Teenage Mutant Ninja Turtles, Heroes in a half-shell, TURTLE POWER!

1st VERSE
They're the world's most fearsome fighting team,
They're heroes on a half-shell and they're green,

BRIDGE
When the evil Shredder attacks,
These Turtle boys don't cut him no slack!

2nd VERSE
Splinter taught them to be ninja teens
Leonardo leads, Donatello does machines
Rapheal is cool, but crude
and Michealanglo is a party dude!
Tap to rate this tab
# A B C D E F G H I J K L M N O P Q R S T U V W X Y Z