Song name
# A B C D E F G H I J K L M N O P Q R S T U V W X Y Z

Misc Soundtrack - Braveheart Theme tab

this is according to me the correct intro to braveheart. any questions or suggestions 
write to me at rausingmannen@hotmail.com

                   X2

e:-----5-8-7-8-7-5-----5--------5-8-7-8-7-5-----5--------|
B:-5-8-------------8-8----5-5-8-------------8-8----------|
G:-------------------------------------------------------|
D:-------------------------------------------------------|
A:-------------------------------------------------------|
E:-------------------------------------------------------|
                   X1

e:----8-10-8-----------6-5-3-1-----1---------------------|
B:-10--------10-8----8---------3-1---3-------------------|
G:----------------10-------------------------------------|
D:-------------------------------------------------------|
A:-------------------------------------------------------|
E:-------------------------------------------------------|

                   X2


e:----12-15-17-20-19-20-19-17-15-15-17-17----------------|
B:-17----------------------------------17----------------|
G:-------------------------------------------------------|
D:-------------------------------------------------------|
A:-------------------------------------------------------|
E:-------------------------------------------------------|
            play the last tone only the second time

Enjoy...
Tap to rate this tab
 
# A B C D E F G H I J K L M N O P Q R S T U V W X Y Z