Song name
# A B C D E F G H I J K L M N O P Q R S T U V W X Y Z

Misc Soundtrack - Jurassic Park Theme tab

-----------------------------1--1--0--------------0--------3-----1--0--0------|
-1--1--0--1--1--0--1--3--3------------1--3-----------1--3-----1-----------3---|
--------------------------------------------4--0------------------------------|
------------------------------------------------------------------------------|
------------------------------------------------------------------------------|
------------------------------------------------------------------------------|


------------------------------------------------------------------------------|
-3--1--0--1--------1--0--1--------1--0--0--1-----------1--0--1--------1--0----|
-------------0--------------0-----------------0-----3-----------0-------------|
----------------3--------------3-----------------2-----------------3----------|
------------------------------------------------------------------------------|
------------------------------------------------------------------------------|


------------------------------------------------------------------------------|
-1--------1--0--0--1--------1--0--1-------------------------------------------|
----0-----------------0-------------------------------------------------------|
-------3-----------------2----------------------------------------------------|
------------------------------------------------------------------------------|
------------------------------------------------------------------------------|
Tap to rate this tab
# A B C D E F G H I J K L M N O P Q R S T U V W X Y Z