Song name
# A B C D E F G H I J K L M N O P Q R S T U V W X Y Z

Misc Soundtrack - Tron Theme tab

Tron Theme by Wendy Carlos


  Db                      Ab           Bbm                   F

E|------------------------4----------------------------------1--|
A|-----4--6------4--6--------4------------1--2------1--2--------|
D|--6---------6--------6--------5------3---------3--------3-----|
G|---------------------------------6----------------------------|
B|--------------------------------------------------------------|
E|--------------------------------------------------------------|

E|--------------------------------------------------------------|
A|1-------------------------------------------------------------|
D|-2------3--1-----3--5----6--5-----6--8---9--7------9--12------|
G|--3---------4----------------8---------------10---------------|
B|--------------------------------------------------------------|
E|--------------------------------------------------------------|

E|------------------------------------------6--------------------|
A|--8--6-----8--11------6--8-------6--8--------6------------3----|
D|--------8----------8----------8--------8--------6------5-------|
G|---------------------------------------------------8-----------|
B|---------------------------------------------------------------|
E|---------------------------------------------------------------|

E|-------------------3--3-------------------------------------------|
A|----4-----3--4-----------4----------------------------------------|
D|-------5--------5-----------5----5--3-----5--7----8--7------8--10-|
G|---------------------------------------6----------------10--------|
B|------------------------------------------------------------------|
E|------------------------------------------------------------------|

E|----------------------------------|
A|----------------------------------|
D|----8--10----9--7------9--12------|
G|-------------------10---------12--|
B|----------------------------------|
E|----------------------------------|


E|--------------------------------------------------------|
A|--9--7-----9--12------12--------------------------------|
D|--------9---------11------------11--13------------------|
G|----------------------------14-----------14-------------|
B|---------------------------------------------14--11--7--|
E|--------------------------------------------------------|
Tap to rate this tab
 
# A B C D E F G H I J K L M N O P Q R S T U V W X Y Z