Misc Soundtrack - Across The Universe - A Day In The Life tab

-----------------------------------------------------------------------------
A Day in the Life Solo - Martin Luther McCoy (Across the Universe Soundtrack)
-----------------------------------------------------------------------------
ORIGINAL BY: Jeff Beck / The Beatles

The solo tabbed below was not in the original Beatles song. Jeff Beck added it in his 
cover version. The tab below done as heard in the "Across the Universe" (2007) soundtrack 
and movie (which was based on Jeff Beck's version).
_____________________________________________________________________________
Tabbed by: Dan H.T.
Email: traudtda@gmail.com

Listen to it here: http://www.youtube.com/watch?v=Nr9zEIsiSXk

Tuning: standard - eBGDAE

e|----------------------------------------------------------|
B|----------3------5--------3---5---------------------------|
G|----2/4------4-------4------------4-----------------------|
D|----------------------------------------------------------|
A|----------------------------------------------------------|
E|----------------------------------------------------------|

e|----------------------------------------------------------|
B|----------------------------------------------------------|
G|--0---4b5b4-----2----0----2---------4---4-----------------|
D|-----------------------------------2----------------------|
A|----------------------------------------------------------|
E|----------------------------------------------------------|


e|----------------------------------------------------------|
B|----------3------5-----3-------3---5----------------------|
G|----2/4------4--------------4-----------------------------|
D|----------------------------------------4-----------------|
A|----------------------------------------------------------|
E|----------------------------------------------------------|

e|----------------------------------------------------------|
B|----------------------------------------------------------|
G|--0----4---4b5b4-----2----0----2---------4---4------------|
D|-----------------------------------2----------------------|
A|----------------------------------------------------------|
E|----------------------------------------------------------|



e|------------10--------12---------10----12-----------------|
B|---10/12---------12--------12--------------12-------------|
G|----------------------------------------------------------|
D|----------------------------------------------------------|
A|----------------------------------------------------------|
E|----------------------------------------------------------|

e|----------------------------------------------------------|
B|---8----12b13b12-----10----8-----10-------12-----12-------|
G|--------------------------------------9-------------------|
D|----------------------------------------------------------|
A|----------------------------------------------------------|
E|----------------------------------------------------------|



e|------------10--------12-----10--------10-----12----------|
B|---10/12---------12--------------12-----------------12----|
G|----------------------------------------------------------|
D|----------------------------------------------------------|
A|----------------------------------------------------------|
E|----------------------------------------------------------|

e|----------------------------------------------------------|
B|---8---12---12b13b12-----10----8-----10-------12-----12---|
G|-----------------------------------------9----------------|
D|----------------------------------------------------------|
A|----------------------------------------------------------|
E|----------------------------------------------------------|


| b  bend
| /  slide up
| \  slide down
| h  hammer-on
| p  pull-off
| ~  vibrato
| +  harmonic
| x  Mute note
Tap to rate this tab
 
# A B C D E F G H I J K L M N O P Q R S T U V W X Y Z