Misc Soundtrack - Morrowind Theme tab

3/4 time

e-12--17--12-/------------/------------/-12--17--12-/------------/
B------------/-13--12--10-/-13--12--10-/------------/-13--12--10-/
G------------/------------/------------/------------/------------/
D---------14-/------------/------------/---------14-/------------/
A-12---------/---------10-/------------/-12---------/------------/
E------------/------------/---------10-/------------/---------13-/

e------------/-12--17--12-/------------/------------/------------/
B-13------10-/------------/-13--12--10-/-13--12--10-/-13--12-10--/
G-----12-----/---------14-/---------12-/---------10-/------------/
D---------10-/------------/------------/------------/------------/
A------------/-12---------/------------/------------/------------/
E------------/------------/------------/------------/------------/

e------------/------------/
B-8------10--/-12--10-----/
G------------/------------/
D------------/------------/
A------------/------------/
E------------/------------/
Tap to rate this tab
 
# A B C D E F G H I J K L M N O P Q R S T U V W X Y Z