Song name
# A B C D E F G H I J K L M N O P Q R S T U V W X Y Z

Misc Soundtrack - Rapunzel Theme tab

This is off Drapht's Album Life Of Riley

Thanks to supersimon on the triple j messageboards for the main riff.
Apparently the sample is a from the song by The Heirs called Don't You Love Me.

Guitar part
This starts and stops at different parts of the song, listen for the timing.

e ----------------------------------------------|
B -----7--------10------------12-----------10---|
G -----7--------10------------12-----------10---|
D -----7---x----10-----x------12-----x-----10---|
A -5--------8-----------10-------------8------x-|
E ----------------------------------------------|


Variation 1
e ----------------------------------------------|
B -----7--------10------------------------------|
G -----7--------10------------------------------|
D -----7---x----10------------------------------|
A -5--------8-----------------------------------|
E ----------------------------------------------|


Variation 2 (miss the first root d note)
e ----------------------------------------------|
B -----7--------10------------12-----------10---|
G -----7--------10------------12-----------10---|
D -----7---x----10-----x------12-----x-----10---|
A ----------8-----------10-------------8------x-|
E ----------------------------------------------|



I think playing this on bass works well with it

G --------------------------|
D --------------------------|
A --------------------------|
E -10--10-13--13-15--15-13--|

 or

G --------------------------|
D --------------------------|
A --------------------------|
E -10--10-13--13----15-13---|


First tab so i hope its good.
Enjoy
Tap to rate this tab
 
# A B C D E F G H I J K L M N O P Q R S T U V W X Y Z