Misc Soundtrack - Shadow War Theme tab

Ok here is my first tab and I haven't found any MAG video game tabs. So here is one of em.
tuning: EADGBA
/ slide

Guitar1                   Guitar2
E--------------------|   -------------------------------|
B-----5--4--3--2--2/3|   -------------------------------|
G--322-22-22-22-2-2/3|   -------------------------------|
D--------------------|   -------------------------------|
A--------------------|   -2--2--2--2--2--2--2--2--3-----|    2X
E--------------------|   -0--0--0--0--0--0--0--0--1-----|






----------------------------------------|
----------------------------------------|
---------------4/3----------------------|
---------------2/1----------------------|
-2--2----2--2-------2--2--2--23---------|   4X
-0--0----0--0-------0--0--0--01---------|











Gtr1        break
E-------------|-----------------------------|
B-0-1-0--0----|-0-1-0--0-*5-7-8-7-5-7-5-3-0-|
G-------2-0-0-|-------2---------------------|
D----------4--|-----------------------------|
A-------------|-----------------------------|
E-------------|-----------------------------|
Gtr2

E----------------------------------------|
B----------------------------------------|
G---------------4/3----------------------|
D---------------2/1----------------------|
A-2--2----2--2-------2--2--2--23---------|
E-0--0----0--0-------0--0--0--01---------|

this comes at the mark(*)

-----------------------------------------|
-----------------------------------------|
-----------------------------------------|   two times
-----------------------------------------|
5--555--4--4--3--3-----------------------|
3--555--2--2--1--1-----------------------|



Guitar1                   Guitar2
E--------------------|   -------------------------------|
B-----5--4--3--2--2/3|   -------------------------------|
G--322-22-22-22-2-2/3|   -------------------------------|
D--------------------|   -------------------------------|
A--------------------|   -2--2--2--2--2--2--2--2--3-----|    2X
E--------------------|   -0--0--0--0--0--0--0--0--1-----|



E---------------------------|
B-5-7-8-7-5-7-8-7-7-5-3-3-5-|
G---------------------------|
D---------------------------|
A---------------------------|
E---------------------------|


Same things at the rest.

you can solve them then

Rate!
Tap to rate this tab
 
# A B C D E F G H I J K L M N O P Q R S T U V W X Y Z