Misc Soundtrack - S Legkim Parom - Ya Sprosil tab

Ya sprosil




     W                   W                   E  E  E  E  E  E  E  E   
E||-------------------|-------------------|-----------1-----------1--|
B||-------------------|-------------------|--------1-----------0-----|
G||-------------------|-------------------|-----2-----------0--------|
D||-------------------|-------------------|--0-----------------------|
A||-------------------|-------------------|--------------------------|
E||-------------------|-------------------|--------------3-----------|


  E  E  E  E  E  E  E  E     E  E  E  E  E  E  E  E   
-----------0--------0--3--|-----------1-----------1--|
--------0-----------------|--------1-----------3-----|
-----0-----------3--------|-----2-----------2--------|
--------------2-----------|--0-----------------------|
--3-----------------------|--------------------------|
--------------------------|--------------1-----------|


  E  E  E  E  E  E  E  E     E  E  E  E  E  E  E  E   
-----------0-----------0--|--------------5-----------|
--------0-----------0-----|--------1-----------1-----|
-----1-----------1--------|-----2-----2-----2-----2--|
--2-----------0-----------|--------------2-----------|
--------------------------|--0-----------------------|
--------------------------|--------------------------|


  E  E  E  E  E  E  E  E     E  E  E  E  E  E  E  E   
--------------4-----------|--------------3-----0-----|
--------0-----------0-----|--------2-----2-----------|
-----1-----1-----1-----1--|-----0-----0-----0-----0--|
--------------2-----------|--------------------------|
--------------------------|--0-----------------------|
--0-----------------------|--------------------------|


  E  E  E  T S. S S E  E  S S    E  E  E  S S E  E  E  E   
----------------5-------------|---------------------1--0--|
----------------5-------------|--------3----3----3--------|
--------5--------------5------|-----2-----2---1-----------|
--0--4-----4--------4-----4---|---------------------------|
------------------------------|--2------------------------|
------------------------------|---------------0-----------|


  E  E  E  E  E  E  E  E     E  E  E  E  E  E  E  E   
--------------------------|--------------2-----------|
--------1-----------1-----|--------1-----------1-----|
-----2-----2-----2-----2--|-----2-----2-----2-----2--|
--------------------------|--1-----------------------|
--0-----------------------|--------------------------|
--------------3-----------|--------------------------|


  E  E  E  E  E  E  E  E     E  E  E  E  E  E  E  E   
--------------4-----------|--------------5-----------|
--------3--0--------3--0--|--------1-----------1-----|
-----1-----------1--------|-----2-----2-----2-----2--|
--------------2-----------|--------------2-----------|
--------------------------|--0-----------------------|
--0-----------------------|--------------------------|


  E  E  E  E  E  E  E  E     E  E  E  E  E  E  E  E   
--------------4-----------|--------------3-----------|
--------0-----------0-----|--------2-----------2-----|
-----1-----1-----1-----1--|-----0-----0-----0-----0--|
--------------2-----------|--------------2-----------|
--------------------------|--0-----------------------|
--0-----------------------|--------------------------|


  E  E  E  E  E  E  E  E     E  E  E  E  E  E  E  E   
--------1-----------1-----|--------1--------------1--|
-----------3-----------3--|--------------------3-----|
-----2-----------2--------|-----2-----0-----0--------|
--0-----------------------|--------------------------|
--------------3-----------|--2-----------------------|
--------------------------|--------------3-----------|


  E  E  E  E  E  E  E  E     E  E  E  E  E  E  E  E   
--0-----------------3-----|--------1-----5-----1-----|
--------1-----------2-----|-----------3-----------3--|
-----0-----0-----2-----2--|-----2-----------2--------|
--------------------------|--0-----------------------|
--3-----------0-----------|--------------------------|
--------------------------|--------------------------|


  E  E  E  E  E  E  E  E     E  E  E  E  E  E  E  E   
-----------0-----------0--|--------------5-----------|
--------0-----------0-----|--------1-----------1-----|
-----1-----------1--------|-----2-----2-----2-----2--|
--2-----------0-----------|--------------2-----------|
--------------------------|--0-----------------------|
--0-----------------------|--------------------------|


  E  E  E  E  E  E  E  E     E  E  E  E  E  E  E  E   
--------------4-----------|--------------3-----0-----|
--------0-----------0-----|--------2-----2-----------|
-----1-----1-----1-----1--|-----0-----0-----0-----0--|
--------------2-----------|--------------------------|
--------------------------|--0-----------------------|
--0-----------------------|--------------------------|


  E  E  E  T S. S S E  E  S S    E  E  E  S S E  E  E  E   
----------------5-------------|---------------------1--0--|
----------------5-------------|--------3----3----3--------|
--------5--------------5------|-----2-----2---1-----------|
--0--4-----4--------4-----4---|---------------------------|
------------------------------|--2------------------------|
------------------------------|---------------0-----------|


  E  E  E  E  E  E  E  E     E  E  E  E  E  E  E  E   
--------------------------|--------------2-----------|
--------1-----------1-----|--------1-----------1-----|
-----2-----2-----2-----2--|-----2-----2-----2-----2--|
--------------------------|--1-----------------------|
--0-----------------------|--------------------------|
--------------3-----------|--------------------------|


  E  E  E  E  E  E  E  E     E  E  E  E  E  E  E  E   
--------------4-----------|--------------3-----------|
--------3--0--------3--0--|--------2-----------2-----|
-----1-----------1--------|-----0-----0-----0-----0--|
--------------2-----------|--------------2-----------|
--------------------------|--0-----------------------|
--0-----------------------|--------------------------|


  E  E  E  E  E  E  E  E     E  E  E  E  E  E  E  E   
--------1-----------5-----|--------------3-----1-----|
--------3--------------6--|--------------3-----------|
-----2-----2-----2--------|-----0--7--0-----0-----0--|
--0-----------------------|--------------------------|
--------------3-----------|--------------------------|
--------------------------|--7-----------3-----------|


  E  E  E  E  E  E  E  E     E  E  E  E  E  E  E  E   
--------------0-----------|--------1--------------1--|
--------1-----------1-----|--------------------0-----|
-----0-----0-----0-----0--|-----2-----2-----0--------|
--------------------------|--0-----------------------|
--3-----------3-----------|--------------------------|
--------------------------|--------------3-----------|


  E  E  E  E  E  E  E  E     E  E  E  E  E  E  E  E   
--------0-----------3-----|--------1-----5-----1-----|
--------------------2-----|--------3-----------3-----|
-----0-----0-----2-----2--|-----2-----2-----2-----2--|
--------------------------|--0-----------------------|
--3-----------0-----------|--------------------------|
--------------------------|--------------1-----------|


  E  E  E  E  E  E  E  S. T    E  E  E  E  E  E  E  E   
--------------0-------------|--------------5-----------|
--------0-----------0-------|--------1-----------1-----|
-----1-----1-----1-----1----|-----2-----2-----2-----2--|
--------------0-------------|--------------2-----------|
----------------------------|--0-----------------------|
--0-------------------------|--------------------------|


  E  E  E  E  E  E  E  E     E  E  E  E  E  E  E  E   
--------------4-----------|--------------3-----0-----|
--------0-----------0-----|--------2-----2-----------|
-----1-----1-----1-----1--|-----0-----0-----0-----0--|
--------------2-----------|--------------------------|
--------------------------|--0-----------------------|
--0-----------------------|--------------------------|


  E  E  E  T S. S S E  E  S S    E  E  E  S S E  E  E  E   
----------------5-------------|---------------------1--0--|
----------------5-------------|--------3----3----3--------|
--------5--------------5------|-----2-----2---1-----------|
--0--4-----4--------4-----4---|---------------------------|
------------------------------|--2------------------------|
------------------------------|---------------0-----------|


  E  E  E  E  E  E  E  E     E  E  E  E  E  E  E  E   
--------------------------|--------------2-----------|
--------1-----------1-----|--------1-----------1-----|
-----2-----2-----2-----2--|-----2-----2-----2-----2--|
--------------------------|--1-----------------------|
--0-----------------------|--------------------------|
--------------3-----------|--------------------------|


  E  E  E  E  E  E  E  E     E  E  E  E  E  E  E  E   
--------------4-----------|--------------3-----------|
--------3--0--------3--0--|--------2-----------2-----|
-----1-----------1--------|-----0-----0-----0-----0--|
--------------2-----------|--------------2-----------|
--------------------------|--0-----------------------|
--0-----------------------|--------------------------|


  E  E  E  E  E  E  E  E     E  E  E  E  E  E  E  E   
--------1-----------5-----|--------------3-----1-----|
--------3--------------6--|--------------3-----------|
-----2-----2-----2--------|-----0--7--0-----0-----0--|
--0-----------------------|--------------------------|
--------------3-----------|--------------------------|
--------------------------|--7-----------3-----------|


  E  E  E  E  E  E  E  E     E  E  E  E  E  E  E  E   
--------------0-----------|--------1--------------1--|
--------1-----------1-----|--------------------0-----|
-----0-----0-----0-----0--|-----2-----2-----0--------|
--------------------------|--0-----------------------|
--3-----------3-----------|--------------------------|
--------------------------|--------------3-----------|


  E  E  E  E  E  E  E  E     E  E  E  E  E  E  E  E   
--------0-----------3-----|--------1-----5-----1-----|
--------------------2-----|--------3-----------3-----|
-----0-----0-----2-----2--|-----2-----2-----2-----2--|
--------------------------|--0-----------------------|
--3-----------0-----------|--------------------------|
--------------------------|--------------1-----------|


  E  E  E  E  E  E  E  S. T    E  E  E  E  E  E  E  E   
--------------0-------------|--------------5-----------|
--------0-----------0-------|--------1-----------1-----|
-----1-----1-----1-----1----|-----2-----2-----2-----2--|
--------------0-------------|--------------2-----------|
----------------------------|--0-----------------------|
--0-------------------------|--------------------------|


  E  E  E  E  E  E  E  E     E  E  E  E  E  E  E  E   
--------------4-----------|--------------3-----0-----|
--------0-----------0-----|--------2-----2-----------|
-----1-----1-----1-----1--|-----0-----0-----0-----0--|
--------------2-----------|--------------------------|
--------------------------|--0-----------------------|
--0-----------------------|--------------------------|


  E  E  E  T S. S S E  E  S S    E  E  E  S S E  E  E  E   
----------------5-------------|---------------------1--0--|
----------------5-------------|--------3----3----3--------|
--------5--------------5------|-----2-----2---1-----------|
--0--4-----4--------4-----4---|---------------------------|
------------------------------|--2------------------------|
------------------------------|---------------0-----------|


  E  E  E  E  E  E  E  E     E  E  E  E  E  E  E  E   
--------------------------|--------------2-----------|
--------1-----------1-----|--------1-----------1-----|
-----2-----2-----2-----2--|-----2-----2-----2-----2--|
--------------------------|--1-----------------------|
--0-----------------------|--------------------------|
--------------3-----------|--------------------------|


  E  E  E  E  E  E  E  E     E  E  E  E  E  E  E  E   
--------------4-----------|--------------3-----------|
--------3--0--------3--0--|--------2-----------2-----|
-----1-----------1--------|-----0-----0-----0-----0--|
--------------2-----------|--------------2-----------|
--------------------------|--0-----------------------|
--0-----------------------|--------------------------|


  E  E  E  E  E  E  E  E     E  E  E  E  E  E  E  E   
--------1-----------5-----|--------------3-----1-----|
--------3--------------6--|--------------3-----------|
-----2-----2-----2--------|-----0--7--0-----0-----0--|
--0-----------------------|--------------------------|
--------------3-----------|--------------------------|
--------------------------|--7-----------3-----------|


  E  E  E  E  E  E  E  E     E  E  E  E  E  E  E  E   
--------------0-----------|--------1--------------1--|
--------1-----------1-----|--------------------0-----|
-----0-----0-----0-----0--|-----2-----2-----0--------|
--------------------------|--0-----------------------|
--3-----------3-----------|--------------------------|
--------------------------|--------------3-----------|


  E  E  E  E  E  E  E  E     E  E  E  E  E  E  E  S. T  
--------0-----------0-----|--------------1-------------|
-----------------------1--|--------3-----------3-------|
-----0-----0-----0--------|-----------3----------------|
--------------------------|-----3--------3--3-----3----|
--3-----------------------|--1-------------------------|
--------------3-----------|----------------------------|


  E  E  E  E  E  E  E  E     E  E  E  E  E  E  E  E   
--------------3-----0-----|--------1-----5-----1-----|
--------2-----------------|-----------------------3--|
-----0-----0-----0-----0--|-----2-----2-----2--------|
--------------2-----------|--0-----------------------|
--0-----------------------|--------------3-----------|
--------------------------|--------------1-----------|


  E  E  E  E  E  E  E  S. T    E  E  E  E  E  E  E  E   
--------0-----5-----0-------|-----------------------0--|
-----------1-----------1----|--------3-----------0-----|
-----2-----------2----------|-----------2-----1--------|
----------------------------|--0--3--------------------|
----------------------------|--------------------------|
--0-------------------------|--------------0-----------|


  E  E  E  E  E  E  E  S S    E  E  E  E  E  E  E  E   
--------------5------------|-----------1-----------1--|
--------1-----------1------|--------1-----------0-----|
-----2-----2-----2-----2---|-----2-----------0--------|
--------------2------------|--0-----------------------|
--0------------------------|--------------------------|
---------------------------|--------------3-----------|


  E  E  E  E  E  E  E  E     E  E  E  E  E  E  E  E   
-----------0--------0--3--|-----------1-----------1--|
--------0-----------------|--------1-----------3-----|
-----0-----------3--------|-----2-----------2--------|
--------------2-----------|--0-----------------------|
--3-----------------------|--------------------------|
--------------------------|--------------1-----------|


  E  E  E  E  E  E  E  E     E  E  E  E  E  E  E  E   
-----------0-----------0--|--------------5-----------|
--------0-----------0-----|--------1-----------1-----|
-----1-----------1--------|-----2-----2-----2-----2--|
--2-----------0-----------|--------------2-----------|
--------------------------|--0-----------------------|
--------------------------|--------------------------|


  E  E  E  E  E  E  E  E     E  E  E  E  E  E  E  E   
--------------4-----------|--------------5-----------|
--------0-----------0-----|--------1-----------1-----|
-----1-----1-----1-----1--|-----2-----2-----2-----2--|
--------------2-----------|--------------2-----------|
--------------------------|--0-----------------------|
--0-----------------------|--------------------------|


  E  E  E  E  E  E  E  E     E  E  E  E  E  E  E  E   
--------------4-----------|--------------5-----------|
--------0-----------0-----|--------1-----------1-----|
-----1-----1-----1-----1--|-----2-----2-----2-----2--|
--------------2-----------|--------------2-----------|
--------------------------|--0-----------------------|
--0-----------------------|--------------------------|


  E  E  E  E  E  E  E  E                
--------------4-----------|-----|-----||
--------0-----------0-----|-----|-----||
-----1-----1-----1-----1--|-----|-----||
--------------2-----------|-----|-----||
--------------------------|-----|-----||
--0-----------------------|-----|-----||




Duration Legend
---------------
W - whole
H - half
Q - quarter
E - 8th
S - 16th
T - 32nd
X - 64th
. - note dotted
|-n-|  - n-tuplets


Tablature Legend
----------------
L - tied note
x - dead note
g - grace note
(n) - ghost note
> - accentuded note
NH - natural harmonic
AH - artificial harmonic
TH - tapped harmonic
SH - semi harmonic
PH - pitch harmonic
h - hammer on
p - pull off
b - bend
br - bendRelease
pb - preBend
pbr - preBendRelease
brb - bendReleaseBend
\n/ - tremolo bar dip
\n - tremolo bar dive
-/n - tremolo bar Release up
/n\ - tremolo bar inverted dip
/n - tremolo bar return
-\n - tremolo bar Release down
S - shift slide
s - legato slide
/ -  slide into from below or out of upwards
\ -  slide into from above or out of downwards
~ - vibrato
W - wide vibrato
tr - trill
TP - tremolo picking
T - tapping
S - slap
P - pop
< - fade in
^ - brush up
v - brush down
Tap to rate this tab
 
# A B C D E F G H I J K L M N O P Q R S T U V W X Y Z