Misc Soundtrack - Tudors Main Theme tab

Hello, This is my first uploaded Tab hope u like it comment me if im wrong somewhere.

----------------|----------------|-----------------------------|------------|
----------------|----------------|-----------12----13-12-------|------------|
------6--7-6----|------6--7-7-9--|-----12-14----14-------14----|------------|
--7-9--9----9---|--7-9--9--------|--14-------------------------|--------9---|
-9--------------|-9--------------|-----------------------------|-11-9-11-11-|
----------------|----------------|-----------------------------|------------|

----------------|----------------------------------12--15--17|
----------------|---------10-----------10--12--15------------|
----------------|-11-9-11--11-9--11--------------------------|
-9-11-12-------|---------------------------------------------|
----------------|--------------------------------------------|
----------------|--------------------------------------------|

--------------------------------|-------------------------------------------|
------------12----13-12---------|---------12---13-12-13-15--15--15--15--15--|
----12-14-----14-------14-------|---12-14----14-----------------------------|
--14----------------------------|-14----------------------------------------|
--------------------------------|-------------------------------------------|
--------------------------------|-------------------------------------------|
Tap to rate this tab
 
# A B C D E F G H I J K L M N O P Q R S T U V W X Y Z