Song name
# A B C D E F G H I J K L M N O P Q R S T U V W X Y Z

Misc Soundtrack - Big Bang Theory - Soft Kitty tab

     Q     Q    Q    Q     
E||-----------------------|
B||-----------------------|
G||--9----------7---------|
D||-------11---------9----|
A||-----------------------|
E||-----------------------|


  E  E   E  E  H         
------------------------|
------------------------|
------------7--9--------|
--7--9--11--------------|
------------------------|
------------------------|


  Q     Q    Q    Q     
-----------------------|
-----------------------|
--9----------7---------|
-------11---------9----|
-----------------------|
-----------------------|


  Q    Q    H          
---------------------||
---------------------||
---------------------||
--7----9----7--------||
---------------------||
---------------------||
Tap to rate this tab
 
# A B C D E F G H I J K L M N O P Q R S T U V W X Y Z