Misc Soundtrack - Indiana Jones Theme tab

I saw another tab on this but it was only the melody so i thought i can do one with both 
rythm and melody.


Rythm Part.

Starts with an F.
E---------------------|
B---------------------|
G---------------------| Play 2 times then the melody begins.
D---------------------|
A---------------------|
E-1---111---1--11111--|


Melody.



E--------------------------------------------------------------|
B------------------------------------11------------------------|
G----------10---------------------9----------------10--12--14--|
D--7-8-10---------5-7-8----10-12-----------12--14--------------|
A--------------------------------------------------------------|
E--------------------------------------------------------------|


E---------------------------------------------------------------------|
B---------------------------------------------------------------------|
G---------10---12-14-15---------14--12-----14--12-----14--12-----14-12|
D--7-8-10----------------10-10----------10---------10--------10-------|Repeat
A---------------------------------------------------------------------|
E---------------------------------------------------------------------|

Thats it!

Hope you like it :)
Tap to rate this tab
 
# A B C D E F G H I J K L M N O P Q R S T U V W X Y Z