Song name
# A B C D E F G H I J K L M N O P Q R S T U V W X Y Z

Misc Soundtrack - Lord Of The Rings - Shire Theme tab

e|---------------------------------------------3--2--------------------------|
B|-------------3-------------------------3--5--------3-----------------------|
G|----0--2--4-----4--2--4--2--0-------4-----------------4--5--4--2-----------|
D|---------------------------------------------------------------------------|
A|---------------------------------------------------------------------------|
E|---------------------------------------------------------------------------|


e|---------------------------------------------------------------------------|
B|-------------3-------------------------3--5--3-----------------------------|
G|----0--2--4-----4--2--4--2--0-------4-----------4--5--4--2----0------------|
D|---------------------------------------------------------------------------|
A|---------------------------------------------------------------------------|
E|---------------------------------------------------------------------------|

First tab, it's pretty simple, enjoy.
Tap to rate this tab
 
# A B C D E F G H I J K L M N O P Q R S T U V W X Y Z