Misc Soundtrack - Pearl Harbor - Tennessee tab

Tennessee Guitar Tabs

Play it lovely.

e |-----0------------------3---2---0---------0----------------|
B |----------3---1---------------------------------3---1------|
G |----------------0------------------0-----------------------|
D |---2-------------------------------------------------------|
A |-3-----3---3-------2---2---2---------3---3----3---3--------|
E |-------------------0------------------1--------------------|

|-----------------------------------------------------0------|
|---------1-3-1---1---0--------------------------------------|
|-----0---0---2-----------2-------0--------------------------|
|-2------------2--2---2-2-2---------4---2-----2--------------|
|--3---3-2---0-----------------2---2---2-----3-----3---------|
|-------------------------------0----------------------------|

|---------------------------------1---0-----------0--------|
|-3---1--1---0--------------------------------------3------|
|---------0--------2---0---2-----------2-------------------|
|---------0-----------------3-----------------3------------|
|---3---------------------------------------1-------1---1--|
|---------3-3---3---3-----1-1---1---1----------------------|

|---------1---0-1h3-5---3---------------0--------------------|
|----------------------3-------5---3------------3---1--------|
|--------2---2-----------------------------------------------|
|-3---0----------------------------------2-------------------|
|---------------------------------------3------3---3---3-----|
|----------------------3-3---3---3---------------------------|

|------3---2---0-------0----------------3---2---0------------|
|------------------------------3---1-------------------------|
|-------------------------------------0----------------------|
|-----------------------2------------------------------------|
|----2---2---2---2-3-----3---3-------2---2---2---2-----------|
|--0----------------------------------0----------------------|

|-----0---------------3-----------------------------------|
|---------3---0---------------0---1---0---1---------------|
|--------------------------0-------0---------------0------|
|-----------------------------------2-----------2--2---2--|
|---3---3---3-------2------------3-----------3-----2------|
|-1---------------3-----3---3---------------------0-------|

|----------------------------------------------------------------------|
|----------------------------------0-1---0---1-------------------------|
|0--0---2-0---2-------------------2---------------0-----0--------------|
|--2-----3-----------2---2h3-0---2-----------1--2---2----2----2--------|
|------------------3--3-3------1---0-----------0-----2----------2------|
|-----0--1---1---------------------------------------0-----------------|

|------------------------------------------------------------------------|
|-------------------------------0---1---0--1-----------------------------|
|0----------------------------------2---------2---2-0--0-0------2--------|
|3---2---0-------2---2h3-0-----2-----------2----2---4-2-2--3-------------|
|3-----------3---3----------2-----0-------------------------2------------|
|------------------------------------------------------0-------------1---|

|--------------------------------------------------------------------|
|-------------------------0---1---0---1------------------------------|
|-0--2------------------------2---------------0-----0---------0------|
|-----------2---2h3---0-----2-----------2---2--2----2---2-3----------|
|-------3--3--1--------1----0-----------0-----2---------2---3--------|
|---1-------------------------------------------0--------------------|

|------------------------------------------------------------|
|---------------------------------------------------1--------|
|---------------------------------------------------0--------|
|--2---0-------3---2---0------3---2---0-------2---2----------|
|----------3----1-----------3---5-----------3---3------------|
|------------------------------------------------------------|

|------------------------------------------------------------------------|
|-----3---0-------0------1-------1-----3---1p0------0-----3---1----------|
|-0-------0----0----0---0----0--------------0------0------------0--------|
|---------2--2-----------2--2----------------2----2------2-------2-------|
|---------2---------------3-----------3-------2--------------------3-----|
|------------------------------------------------------------------------|


Source: http://www.youtube.com/watch?v=eF0EwO2oRAQ
Tap to rate this tab
 
# A B C D E F G H I J K L M N O P Q R S T U V W X Y Z