Song name
# A B C D E F G H I J K L M N O P Q R S T U V W X Y Z

Misc Soundtrack - Need For Speed Carbon - Muscle Theme tab

-------------------------------------------------------------------------------
			     NFS Carbon - Muscle Theme
-------------------------------------------------------------------------------
Tabbed by: WantsLesPaul

I decided to tab this quickly, because this could be a fun thing for the the beginners to play.

Tuning: Half-Step Down

This is the main riff
e|---------------------------(0)--|
B|----------------------------0---|
G|----------------------------0---|
D|------------------2-2-2-5-5-----|
A|2-2-2-3-3-3-5-5-5-0-0-0-3-3-----|
E|0-0-0-1-1-1-3-3-3---------------|


e|--------------------------------|
B|--------------------------------|
G|--------------------------------|
D|------------------2-2-2-5-5-2br-| 1/2
A|2-2-2-3-3-3-5-5-5-0-0-0-3-3-----|
E|0-0-0-1-1-1-3-3-3---------------|

This is the bass part that comes next
G|--------------------------------|
D|--------------------------------|
A|--------------------------5-5-5-|
E|0-0---0-------------------------|


This is an alternative way how to play the main riff
e|-----------------------------(0)|
B|------------------------------0-|
G|------------------------------0-|
D|------------------------------7-|
A|2-2-2-3-3-3-5-5-5-7-7-7-10-10---|
E|0-0-0-1-1-1-3-3-3-5-5-5-8--8----|


e|--------------------------------|
B|--------------------------------|
G|--------------------------------|
D|--------------------------------|
A|2-2-2-3-3-3-5-5-5-7-7-7-10-10-7br 1/2
E|0-0-0-1-1-1-3-3-3-5-5-5-8--8----|

************************************

| /   slide up
| \   slide down
| ()  Ghost note
| h   hammer-on
| p   pull-off
| ~   vibrato
| +   harmonic
| x   Mute note
| b   Bend
| pb  Pre-bend
| br  Bend release
| pbr Pre-bend release
| brb Bend release bend

************************************
Tap to rate this tab
 
# A B C D E F G H I J K L M N O P Q R S T U V W X Y Z