Song name
# A B C D E F G H I J K L M N O P Q R S T U V W X Y Z

Misc Soundtrack - Mortal Kombat Theme tab

MORTAL KOMBAT THEME
Tuning:Standard
Done by: icpgettozone




e|---------------------------------------------------------|
B|-----------------------5-------------5-----8-----5-------|
G|--------5------7-----------7---5--5-----5-----5------5---|
D|--7--7-----7-------7-------------------------------------|
A|---------------------------------------------------------|
E|---------------------------------------------------------|

e|---------------------------------------------------------|
B|---------------------------------------------------------|
G|--------4-----5-----7--4---------------------------------|
D|--5--5-----5-----5--------------7-----10-----10--9-------|
A|--------------------------8--8-----8------8--------------|
E|---------------------------------------------------------|





e|---------------------------------------------------------|
B|---------------------------------------------------------|
G|-----------------5---------------------------------------|
D|--7--7--7--7--5-----7--7--7--7--5------------------------|
A|-----------------------------------7---------------------|
E|---------------------------------------------------------|


e|---------------------------------------------------------|
B|---------------------------------------------------------|
G|-----------------5---------------------------------------|
D|--7--7--7--7--5-----7--7--7--7--7--7--7--7---------------|
A|---------------------------------------------------------|
E|---------------------------------------------------------|





e|---------------------------------------------------------|
B|---------------------------------------------------------|
G|-----9---------------------------------------------------|
D|--7-----7--10--7--8--7--10--7--8--5----------------------|
A|---------------------------------------------------------|
E|---------------------------------------------------------|

e|---------------------------------------------------------|
B|---------------------------------------------------------|
G|-----9---------------------------------------------------|
D|--7-----7--10--5--5--7--7--7-----------------------------|
A|---------------------------------------------------------|
E|---------------------------------------------------------|

This is the most proper way to play the Mortal Kombat theme. I have played along with 
the song a few times and I have all the notes in the PROPER key so this version matches up 
with the song perfect. Good luck!
Tap to rate this tab
 
# A B C D E F G H I J K L M N O P Q R S T U V W X Y Z