Song name
# A B C D E F G H I J K L M N O P Q R S T U V W X Y Z

Misc Soundtrack - Dave Porter - Breaking Bad Theme tab

-------------------------------------------------------------------------------
Theme from Breaking Bad - Dave Porter
-------------------------------------------------------------------------------

Tabbed by: Fabes

Tuning: DROP D

A great theme to an amazing tv series. Bend the 2nd and 4th notes by ear. Enjoy!

e|-------------------------------------------------------------------------|
B|-------------------------------------------------------------------------|
G|----7~----9b11~----7-----------------------------------------------------|
D|----7~----9b11~----7---5b7~------3~-----0~-------------------------------|
A|----5~----7b9~-----5---5b7~------3~-----0~-------------------------------|
E|-----------------------5b7~------3~-----0~-------------------------------|

Tap to rate this tab
# A B C D E F G H I J K L M N O P Q R S T U V W X Y Z