Song name
# A B C D E F G H I J K L M N O P Q R S T U V W X Y Z

Misc Soundtrack - Oompa Lumpa Song tab

E|-------------------------------------------------|
B|-------------------------------------------------|
G|-------5---5---5-3-1-3--3--1-0-5-5--3-1-0-0------|
D|---------3---3-----------------------------------|
A|-------------------------------------------------|
E|-------------------------------------------------|

E|-------------------------------------------------|
B|-------------------------------------------------|
G|-------5---5---5-3-1-3--3--1-0-5-5--3-1-0--------|
D|---------3---3-----------------------------3-----|
A|-------------------------------------------------|
E|-------------------------------------------------|


that's it! email for comments or questions or anything else jo.cool.boivin@hotmail.com
Tap to rate this tab
# A B C D E F G H I J K L M N O P Q R S T U V W X Y Z