Song name
# A B C D E F G H I J K L M N O P Q R S T U V W X Y Z

Misc Soundtrack - The Great Escape Theme tab

E-|--------------------------------------------------------------
B-|--------------------------------------------------------------
G-|---------2-0----------0-0-------------------------------------
D-|-3-----------3-0---------3-2-3-2-0----------------------------
A-|3----3-------------------------------3-0----------------------
E-|--------------------------------------------------------------

E-|----------------------------------------------------------------
B-|----------------------------------------------------------------
G-|-------------------2-0---------0-0--------------0---------------
D-|------------3-------------3-0-----------3-2-------3-------------
A-|-0-1-2-3----3--------------------------------3------------------
E-|----------------------------------------------------------------

Heres the main tune EVERYONE will recognise. You can throw in extra things like hammer ons
or pull offs to make it more interesting, but this is the basis of the main theme tune...

Enjoy
Tap to rate this tab
 
# A B C D E F G H I J K L M N O P Q R S T U V W X Y Z