Song name
# A B C D E F G H I J K L M N O P Q R S T U V W X Y Z

Misc Soundtrack - Dr Kelso - My Tuscaloosa Heart tab

Soundtrack: Scrubs Season 1
Artist: Dr. Kelso
Song: My Tuscaloosa Heart

Tuning: standard

Intro:
E-2/4-----4-------3-----2---0--------2-2----------|
B------------------------------------0-0----------|
G-----4-4---4-4-3---3-2---2-1--------2-2----------|
D------------------------------------1-1----------|
A-----------------------------0-1-2--2-2----------|
E-------------------------------------------------|

E----------------------------10-------------------|
B-------------------------------------------------|
G---1---2---4---2---1---2-------------------------|
D----------------------------9--------------------|
A---2---4---5---4---2---4-------------------------|
E-0---0---0---0---0---0---0-----------------------|

E-------------------------------3-3-3-------------|
B---5---5---7/8/7-----5---5-----2-2-2-------------|
G---6---6---------6---6---6-----2-2-2-------------|
D-------7-----------------7---2---2-2-------------|
A-0---0-------------0---0---0-----0-0-------------|
E-------------------------------------------------|

E-------------------------2--2-2------------------|
B-------------------------0--0-0------------------|
G---1---2---4---2-------2----2-2------------------|
D---------------------1------1-1------------------|
A---2---4---5---4---2--------2-2------------------|
E-0---0---0---0---0-------------------------------|

E------3-0---------------------------2-2----------|
B----------3-0-----------------------0-0----------|
G--------------2/3/2-0---------------2-2----------|
D----------------------2-0-2---------1-1----------|
A-----------------------------0-1-2--2-2----------|
E-0-0---------------------------------------------|

  Woke up this morning, without you
E----------------------------10-------------------|
B-------------------------------------------------|
G---1---2---4---2---1---2-------------------------|
D----------------------------9--------------------|
A---2---4---5---4---2---4-------------------------|
E-0---0---0---0---0---0---0-----------------------|

  Oh and angel, the sky is blue
E-------------------------------3-3-3-------------|
B---5---5---7/8/7-----5---5-----2-2-2-------------|
G---6---6---------6---6---6-----2-2-2-------------|
D-------7-----------------7---2---2-2-------------|
A-0---0-------------0---0---0-----0-0-------------|
E-------------------------------------------------|

  And there's nothing I can do but close my eyes
E-------------------------2--2-2------------------|
B-------------------------0--0-0------------------|
G---1---2---4---2-------2----2-2------------------|
D---------------------1------1-1------------------|
A---2---4---5---4---2--------2-2------------------|
E-0---0---0---0---0-------------------------------|

  and dream about you....
E------3-0---------------------------2-2----------|
B----------3-0-----------------------0-0----------|
G--------------2/3/2-0---------------2-2----------|
D----------------------2-0-2---------1-1----------|
A-----------------------------0-1-2--2-2----------|
E-0-0---------------------------------------------|

  You played a part sweet bunny
E----------------------------10-------------------|
B-------------------------------------------------|
G---1---2---4---2---1---2-------------------------|
D----------------------------9--------------------|
A---2---4---5---4---2---4-------------------------|
E-0---0---0---0---0---0---0-----------------------|

  You broke my Tuscaloosa heart now honey
E-------------------------------3-3-3-------------|
B---5---5---7/8/7-----5---5-----2-2-2-------------|
G---6---6---------6---6---6-----2-2-2-------------|
D-------7-----------------7---2---2-2-------------|
A-0---0-------------0---0---0-----0-0-------------|
E-------------------------------------------------|

  Oh it's sad but it's true
E-------------------------2--2-2------------------|
B-------------------------0--0-0------------------|
G---1---2---4---2-------2----2-2------------------|
D---------------------1------1-1------------------|
A---2---4---5---4---2--------2-2------------------|
E-0---0---0---0---0-------------------------------|

   I love you.
E-------12-12-12-12-12-12-------------------------10~~
B-------------------------12-14---------------9-9-9--~
G-------------------------------12/13/12-11-9-7-7-7--~
D---------------------------------------------9-9-9--~
A---------------------------------------------7-7-7--~
E-0-0------------------------------------------------~
Tap to rate this tab
 
# A B C D E F G H I J K L M N O P Q R S T U V W X Y Z