Song name
# A B C D E F G H I J K L M N O P Q R S T U V W X Y Z

Misc Soundtrack - Sanity Not Included - Season One Theme tab

-------------------------------------------------------------------------------
			     Sanity Not Included Season One Theme
-------------------------------------------------------------------------------
Tabbed by: facemelt3r
Email: shadowblad3s@hotmail.co.uk

Hey, found tabs for season two, so I listened to the song and reworked them into the 
season one format.  'Tis my first tab, enjoy! :D

Tuning: Standard (EADGBe)

e|--------------------------------------|
B|13p8h11h13p8h11h13p8h11h13p8h11h13~~~~|
G|--------------------------------------|
D|--------------------------------------|
A|--------------------------------------|
E|--------------------------------------|

e|----------------11-10-----------------------11~~~~13~~~~|
B|-------------11-------11-11/13~~13p11--------9~~~~11~~~~|
G|13~~13~13-13-------------------------12p10~~------------|
D|--------------------------------------------------------|
A|--------------------------------------------------------|
E|--------------------------------------------------------|

e|11p8-11p8-11p8-11p8-11p8-11p8-11p8-11p8-13p10--13p10--13p10--13p10--13~~~~|
B|----9----9----9----9----9----9----9----9-----11-----11-----11-----11------|
G|--------------------------------------------------------------------------|
D|--------------------------------------------------------------------------|
A|--------------------------------------------------------------------------|
E|--------------------------------------------------------------------------|

e|18-18~18b20~~~~~~~~~~------------------------------|
B|---------------------------------------------------|
G|---------------------------------------------------|
D|---------------------\\\\10~~\\\\------------------|
A|---------------------\\\\10~~\\\\------------------|
E|---------------------\\\\-8~~\\\\------------------|

************************************

| /   slide up
| \   slide down
| h   hammer-on
| p   pull-off
| ~   vibrato
| +   harmonic
| x   Mute note
| b   Bend
| pb  Pre-bend
| br  Bend release
| pbr Pre-bend release
| brb Bend release bend

************************************
Tap to rate this tab
# A B C D E F G H I J K L M N O P Q R S T U V W X Y Z