Song name
# A B C D E F G H I J K L M N O P Q R S T U V W X Y Z

Misc Soundtrack - Xena Theme tab

Artist: Joseph LoDuca
Song: Xena Theme
Tuning: Standard
Tabbed By: Raeden

Note: This is just how I play the theme. There are many different interpretations of it. 
The multiple hammer-ons and pull-offs are optional, at least in everything but the 
intro. So, just ignore them if you wish. I personally love them, so that's why I play it this way.

e |-------------------------------------------------------|
B |-5/8/10-12p10----12-10--10h12p10-----------------------|
G |--------------12-----------------12-11~-11h12p11-9~----|
D |-------------------------------------------------------|
A |-------------------------------------------------------|
E |-------------------------------------------------------|

e |-------------------------------------------------------|
B |-------------------------------------------------------|
G |-9h11h12-9h11h12-9h11-11~-9h11h12-9h11h12-9~-----------|
D |-------------------------------------------------------|
A |-------------------------------------------------------|
E |-------------------------------------------------------|

e |-------------------------------------------------------|
B |-10h12h13-10h12h13-10h12-12~--10h12h13-10h12h13-10~----|
G |-------------------------------------------------------|
D |-------------------------------------------------------|
A |-------------------------------------------------------|
E |-------------------------------------------------------|

e |------------10---------------------------10-10b13------|
B |-8/10h12h13----13-12h13p12p10-8/10h12h13---------------|
G |-------------------------------------------------------|
D |-------------------------------------------------------|
A |-------------------------------------------------------|
E |-------------------------------------------------------|

e |-------------------------------------------------------|
B |-------------------------------------------------------|
G |-9h11h12-9h11h12-9h11-11~-9h11h12-9h11h12-9~-----------|
D |-------------------------------------------------------|
A |-------------------------------------------------------|
E |-------------------------------------------------------|

e |---------------------------------------11h1214-12~-----|
B |-10h12h13-10h12h13-10h12-12~--10h12h13-----------------|
G |-------------------------------------------------------|
D |-------------------------------------------------------|
A |-------------------------------------------------------|
E |-------------------------------------------------------|

e |-------------------------------------------------------|
B |-------------------------------------------------------|
G |-9-9---------------------------------------------------|
D |-7-7-12/11/12------------------------------------------|
A |-----10/-9/10------------------------------------------|
E |-------------------------------------------------------|
Tap to rate this tab
# A B C D E F G H I J K L M N O P Q R S T U V W X Y Z