Song name
# A B C D E F G H I J K L M N O P Q R S T U V W X Y Z

Misc Soundtrack - Pearl Harbor Theme tab

Awright then, I've seen a tab for this song on UG before,
but there was only the leading melody.

And please, people, DONT PUT DISTORSION ON IT... PLAY NICE!


/ : slide up
\ : slide down
* : NOTE OF THE LEADING MELODY
h : hammer-on
p : pull-off
~ : vibrato
               
e-|---------------------------------------------------|
B-|-3*h4*p3*h4*---------------------------------------|
G-|-------------0/3*-3*~~~-3*-5*-3*-5*-------0*-------|
D-|------------------------------------3*/5*----3*~~~-|
A-|---------------------------------------------------|
E-|---------------3-----------4--------4//6-----1-----|

e-|---------------------------------------------------|
B-|-3*h4*p3*h4*---------------------------------------|
G-|-------------0/3*-3*~~~-3*----------------0*-------|
D-|---------------------------6*-5*-3*-1*/5*----3*~~~-|
A-|---------------------------------------------------|
E-|---------------3--------4-----------3//6-----4-----|

e-|---------------------------------------------------|
B-|-3*h4*p3*h4*---------------------------------------|
G-|-------------0/3*-3*~~~-3*-5*-3*-5*-------0*-------|
D-|------------------------------------3*/5*----3*~~~-|
A-|---------------------------------------------------|
E-|---------------3-----------4--------4//6-----1-----|

e-|---------------------------------------------------|
B-|-3*h4*p3*h4*---------------------------------------|
G-|-------------0/3*-3*~~~-3*-------------------------|
D-|---------------------------6*5*3*1*6*5*3*1*6*5*\3--|
A-|---------------------------------------------------|
E-|---------------3--------4--------------------6\\4--|

That's pretty much it. Just repeat all that as much as you want.

A little piece of advice: put your heart on it when you play, because it's a really sad song.

--- Drop me a line if you need any help---
        ---etticor22@hotmail.com---
Tap to rate this tab
 
# A B C D E F G H I J K L M N O P Q R S T U V W X Y Z