Song name
# A B C D E F G H I J K L M N O P Q R S T U V W X Y Z

Misc Soundtrack - Harry Potter - Hedwigs Theme tab

This is my first tab so sorry  if it's not great!			    

Hedwig's Theme


Tuning: C

E|---0---3--2--0--7--5--2----0--3---2-------1--------------------------------|
B|-0------------------------------------3-------0--------------------------- |
G|---------------------------------------------------------------------------|
D|---------------------------------------------------------------------------|
A|---------------------------------------------------------------------------|
E|---------------------------------------------------------------------------|

E|------0---3--2--0---7---10---9--8-0--7--6--5------2---0--------------------|
B|---0------------------------------------------0----------------------------|
G|---------------------------------------------------------------------------|
D|---------------------------------------------------------------------------|
A|---------------------------------------------------------------------------|
E|---------------------------------------------------------------------------|

E|---3---7---3--7--3---8---7---6--0--6---5--4------2---0---------------------|
B|---------------------------------------------0-----------------------------|
G|---------------------------------------------------------------------------|
D|---------------------------------------------------------------------------|
A|---------------------------------------------------------------------------|
E|---------------------------------------------------------------------------|
End on an open strum. ( If you want! )
Tap to rate this tab
 
# A B C D E F G H I J K L M N O P Q R S T U V W X Y Z