Song name
# A B C D E F G H I J K L M N O P Q R S T U V W X Y Z

Misc Soundtrack - The Village - The Gravel Road tab

                                     x2
||-6----6-----------|-----------------||------6---10---8-|-6--------------|-------------|
||----------8----8--|--6----8---------||--8--------------|-----8---6------|-------------|
||>-----------------|----------------<||-----------------|-------------7--|------5------|
||>-----------------|----------------<||-----------------|----------------|-------------|
||------------------|-----------------||-----------------|----------------|-------------|
||------------------|-----------------||-----------------|----------------|-------------|

|------------------|-------------------|----------------|-8------6---8--|-10---11---10---8--|
|----------3----4--|-3-----------------|----------------|---------------|-------------------|
|-3----5-----------|------5----3----2--|--0---3---0-----|---------------|-------------------|
|------------------|-------------------|----------------|---------------|-------------------|
|------------------|-------------------|----------------|---------------|-------------------|
|------------------|-------------------|----------------|---------------|-------------------|

|--6---5---3-----6--||---3--------|--5--------|--6--------|--8----10----||x2
|-------------------||------------|-----------|-----------|-10----8-----||
|-------------------||>-----------|-----------|-----------|------------<||
|-------------------||>-----------|-----------|-----------|------------<||
|-------------------||------------|-----------|-----------|-------------||
|-------------------||------------|-----------|-----------|-------------||
Tap to rate this tab
# A B C D E F G H I J K L M N O P Q R S T U V W X Y Z