Song name
# A B C D E F G H I J K L M N O P Q R S T U V W X Y Z

Misc Soundtrack - Harry Potter Theme tab

Harry Potter Theme 
Tabbed by: Max la Menace

Here are the notes that we found in the middle of the Harry Potter Theme song. Good luck...

E|-----------------7-5-----|--0--3-2----1-----|
B|--0-5--8-7-5----------7--|---------3-----0--|
G|-------------------------|------------------|
D|-------------------------|------------------|
A|-------------------------|------------------|
E|-------------------------|------------------|


E|---------------7--10--9-8-|--4--8--7-6----3-0--|
B|-0-5--8-7-5---------------|--------------------|
G|--------------------------|------------3-------|
D|--------------------------|--------------------|
A|--------------------------|--------------------|
E|--------------------------|--------------------|


E|----7----7-----8--7-6-|------7-6-------7----|
B|--8----8-----8--------|-7-8-----------------|
G|----------------------|-------------5*------|
D|----------------------|----------8----------|
A|----------------------|---------------------|
E|----------------------|---------------------|


E|----7----7-----10--9--8-|-4--8--7--6-----3-0--|
B|--8----8-----8----------|---------------------|
G|------------------------|-------------3-------|
D|------------------------|---------------------|
A|------------------------|---------------------|
E|------------------------|---------------------|


* this note sounds strange but, in the song, it's sounds strange too. 
Tap to rate this tab
# A B C D E F G H I J K L M N O P Q R S T U V W X Y Z