Song name
# A B C D E F G H I J K L M N O P Q R S T U V W X Y Z

Misc Soundtrack - Chocolat - Vianne Sets Up Shop tab

Vianne Sets up Shop (track 4), from Chocolat
Philip Rouger Et Son Ensemble

by Doug Norfolk
me@dougnorfolk.com.au - fixed and feedback welcome
Learnt a lot from this live version: http://www.youtube.com/watch?v=9r4NC0eB3cY


INTRO

  x4

  dm

e|-1--
B|-3--
G|-2--
D|-0--
A|-0--
E|-x--


  x6   x1   x1   x2   x1   x1    x4

  dm gM7b  GM7    c   dm   a    dm

e|-1----3----3----0----1----0----1-------|
B|-3----6----5----1----3----2----3-------|
G|-2----3----3----0----2----0----2-------|
D|-0----5----5----2----0----2----0-------|
A|-0----5----5----3----0----0----0-------|
E|-x----3----3----x----x----x----x-------|



  x6   x1   x1   x1   x1   x1   x1   x1   x1   x2   x4

  dm gM7b? GM7    c   dm    a   dm    c   dm    a   dm

e|-1----3----3----0----1----0----1----0----1----0----1-------|
B|-3----6----5----1----3----2----3----1----3----2----3-------|
G|-2----3----3----0----2----0----2----0----2----0----2-------|
D|-0----5----5----2----0----2----0----2----0----2----0-------|
A|-0----5----5----3----0----0----0----3----0----0----0-------|
E|-x----3----3----x----x----x----x----x----x----x----x-------|



  x1   x1   x2   x2   x2   x1   x1   x1   x1   x2

  gm    c   dm    a   dm    gm   c   dm   gm    a          .. .. . .  .

e|-3----0----1----0----1----3----0----1----3----0----------11-11-1-1 ---0--------|
B|-3----1----3----1----3----3----1----3----3----2----------33-33-3-3----2--------|
G|-3----0----2----0----2----3----0----2----3----0----------11-11-1-1----0--------|
D|-5----2----0----2----0----5----2----0----5----2----------33-33-3-3----2--------|
A|-5----3----0----3----0----5----3----0----5----0----------11-11-1-1----0--------|
E|-3----x----x----x----x----3----x----x----3----x--------------------------------|
Tap to rate this tab
# A B C D E F G H I J K L M N O P Q R S T U V W X Y Z