Song name
# A B C D E F G H I J K L M N O P Q R S T U V W X Y Z

Misc Soundtrack - Sherlock Bbc Theme tab

BBC Sherlock soundtrack: David Arnold and Michael Price

This is the distinctive melody used throughout the soundtrack to the BBC drama series Sherlock.

Standard Tuning

E|--------------------------------------------------------------------------|
B|------------------------------------------8-------------6-----------------|
G|-----------------5-------5-5-4h5h7-5-8------5-5-7-8-7-5---5-----5-7-8-----|
D|---5-5-4h5h6-5-3-------3--------------------------------------------------|
A|-3------------------------------------------------------------------------|
E|--------------------------------------------------------------------------|

E|-------------------------------------------------------------------------|
B|---6---------------------------------------------------------------------|
G|-8---7--7-8-5--5-7-4--1-0-5----------------------------------------------|
D|-------------------------------------------------------------------------|
A|-------------------------------------------------------------------------|
E|-------------------------------------------------------------------------|
Tap to rate this tab
# A B C D E F G H I J K L M N O P Q R S T U V W X Y Z