Song name
# A B C D E F G H I J K L M N O P Q R S T U V W X Y Z

Misc Soundtrack - Inno Italiano Di Mameli Theme tab

Inno Italiano, di Goffredo Mameli
Semplice e perfetto!

|------------------------------------------------------------------------------------------|
|------------------------------------------------------------------------------------------|
|------------------------------------------------------------------------------------------|
|----8-----8-----10-----8---------------17-----17-----18-----17----------------------------|
|------------------------------------------------------------------------------------------|
|------------------------------------------------------------------------------------------|


|------------------------------------------------------------------------------------------|
|------------------------------------------------------------------------------------------|
|------------------------------------------------------------------------------------------|
|---17----20----18----17---------15----17----15----13--------------------------------------|
|------------------------------------------------------------------------------------------|
|------------------------------------------------------------------------------------------|


|------------------------------------------------------------------------------------------|
|------------------------------------------------------------------------------------------|
|------------------------------------------------------------------------------------------|
|----8-----8-----10-----8---------------17-----17-----18-----17----------------------------|
|------------------------------------------------------------------------------------------|
|------------------------------------------------------------------------------------------|


|------------------------------------------------------------------------------------------|
|------------------------------------------------------------------------------------------|
|------------------------------------------------------------------------------------------|
|---17----20----18----17---------15----17----15----13--------17---17---12------------------|
|------------------------------------------------------------------------------------------|
|------------------------------------------------------------------------------------------|


|------------------------------------------------------------------------------------------|
|------------------------------------------------------------------------------------------|
|------------------------------------------------------------------------------------------|
|---13----15----13-----12----10-----------13----12----13----15---------8---17---18---------|
|------------------------------------------------------------------------------------------|
|------------------------------------------------------------------------------------------|

Buon Divertimento!
Tap to rate this tab
 
# A B C D E F G H I J K L M N O P Q R S T U V W X Y Z