Song name
# A B C D E F G H I J K L M N O P Q R S T U V W X Y Z

Misc Soundtrack - Sherlock Bbc Theme tab

     BBC  Sherlock Theme                                     
Enjoy

     E  E  E  E  S S Q    E     E  H        Q.        E  E  E  E  S S Q    E   
E||--------------------------|---------------------|--------------------------|
B||--------------------------|-----1--------L------|-----1-----1--0-1-3----1--|
G||-----0-----0----0-1----0--|---------------------|--------------------------|
D||--------------4-----------|--3------------------|--3-----------------------|
A||--3-----------------------|---------------------|--------------------------|
E||--------------------------|---------------------|--------------------------|


  W                   E  E  E  E  E  E  T  T  T E  T    E  E  E  H        S S  
-------------------|--3------------------------------|--1---------------------|
--4----------------|-----1-----1--3--4--3h-4p-3-1--L-|-----1--------------1-3-|
-------------------|---------------------------------|------------------------|
-------------------|---------------------------------|------------------------|
-------------------|---------------------------------|------------------------|
-------------------|---------------------------------|------------------------|


  E  S S E  S S E  S S E  S S    W                                       
-------1----------------------|--------------------||-------------------|
--4--4---3--3-4------3-0------|--1-----------------||-------------------|
----------------5--5------1-0-|-------------------*||-------------------|
------------------------------|-------------------*||-------------------|
------------------------------|--------------------||-------------------|
------------------------------|--------------------||-------------------|







W - whole
H - half
Q - quarter
E - 8th
S - 16th
T - 32nd
X - 64th
. - note dotted
|-n-|  - n-tuplets

Tap to rate this tab
# A B C D E F G H I J K L M N O P Q R S T U V W X Y Z