Song name
# A B C D E F G H I J K L M N O P Q R S T U V W X Y Z

Misc Soundtrack - Pans Labyrinth Theme tab

-------------------------------------------------------------------------------
             "Nana del Laberinto del Fauno" (Pan's Labyrinth Lullaby)
-------------------------------------------------------------------------------
Tabbed by: Bryan Franz (youtube.com/BryanFranzMusic)
Email:

Tuning: Standard

Note: I made some minor modifications to the music to make the melody stand out more.  I 
didn't want it to be too "crowded" with the rhythm.

Enjoy!!  :D

1.
   Am                Em7
|-----------------------------------------------------------------|
|--------------------------3--------3-----------------------------|
|--------5--------5-----------------------------------------------|
|-----2--------2--------2--------2--------------------------------|
|--0--------0--------2--------2-----------------------------------|
|-----------------------------------------------------------------|

2.
   Am                                  Am          Dm
|--0-------0-1-0-----------------------0-------0-1---------1-----------1---|
|----3-1-3-------------1-----------1-----3-1-3-----3-----------------------|
|------2-----------------------------------2-----------2-----------2-------|
|------------------2-----------2-------------------0-----------0-----------|
|--3-----------0-----------0-----------3-----------------------------------|
|--------------------------------------------------------------------------|

   Dm          E*                                   Am
|----------------------4-----------4---1-------3----0-----------------|
|--3-------------------5-----------5----------------------1--------1--|
|----5-4-5-7-9-7-----------7---------------1--------------------------|
|--0---6---9---0---6-------0---6-------0---------------2--------2-----|
|---------------------------------------------------0--------0--------|
|---------------------------------------------------------------------|

3.

Try to hit the G# note (4th fret on high E string) close to the fret so as to half-way 
"mute" it.  It sounds pretty cool.

   C                         C        Dm                Dm       E*
|--0--------0----------------0--1--3--1-----------------------5--4------------|
|--------1--------1-------1--------1--------3--------3--6--8--6---------------|
|----------------------------------------2--------2---------------------------|
|-----2--------2--------2-------2-----0--------0-----------7-----------3------|
|--3--------3--------3-------3--------------------------5-----------2---------|
|----------------------------------------------------------------0------------|

   E+F      Am
|-----------0-----------------|
|--------6--------1--------1--|
|-----------------------------|
|--------3-----2--------2-----|
|-----2-----0--------0--------|
|--0--------------------------|

   C                         C        Dm                Dm       E*
|--0--------0----------------0--1--3--1-----------------------5--5------------|
|--------1--------1-------1--------1--------3--------3--6--8--6---------------|
|----------------------------------------2--------2---------------------------|
|-----2--------2--------2-------2-----0--------0-----------7-----------3------|
|--3--------3--------3-------3--------------------------5-----------2---------|
|----------------------------------------------------------------0------------|

   E*                Am                C        E7       Am       E
|--4-----------------0-----------------0---------------------------------------|
|-----------------6--------1--------1--------1--3------------------------------|
|-----------------------------------------------------1--5--------4------------|
|--------3--------3-----2--------2--------2--------0-----------7--------6------|
|-----2--------2-----0--------0--------3--------2-----------7--------7---------|
|--0--------0--------------------------------------------5--------4------------|

   Am
|-------------------5----------------------------------------------|
|----------------5--5----------------------------------------------|
|-----------2/5-----5----------------------------------------------|
|--------2----------7----------------------------------------------|
|-----3-------------0----------------------------------------------|
|--5---------------------------------------------------------------|


************************************

| /   slide up
| \   slide down
| h   hammer-on
| p   pull-off
| ~   vibrato
| +   harmonic
| x   Mute note
| b   Bend
| pb  Pre-bend
| br  Bend release
| pbr Pre-bend release
| brb Bend release bend

************************************
Tap to rate this tab
# A B C D E F G H I J K L M N O P Q R S T U V W X Y Z