Song name
# A B C D E F G H I J K L M N O P Q R S T U V W X Y Z

Misc Soundtrack - Home Alone Theme tab

e ----------------------------------------------------------|
b ----------------------------------------------------------|
g ----------------------------------------------------------|
d ----------------------10----------------------------------|
a ---11--8--11--8----11----11--10--8----11--8--11--8----11--|
E ----------------11---------------------------------11-----|

  ----------------------------------------------------------|
  ----------------------------------------------------------|
  ----------------------------------------------------------|
  ------------12--9----10--9--7--5--------------------------|
  -9--11--12------------------------------------------------|
  ----------------------------------------------------------|



  Repeat this as much as you want 


  Made by: Richard Guadarrama
Tap to rate this tab
# A B C D E F G H I J K L M N O P Q R S T U V W X Y Z