Song name
# A B C D E F G H I J K L M N O P Q R S T U V W X Y Z

Misc Soundtrack - My Girlfriend Is A Gumiho - Fox Rain tab

        FOX RAIN TABS

*NOTE!
CAPO on the THIRD FRET then follow this tab.
*IF YOU DON'T HAVE A CAPO, THEN JUST ADD 3 ON EACH OF THE NUMBERS.

CHANGELOG [:})  ]
*SLIGHT MODIFICATIONS ON:
        STANZA 2
        CHORUS 1
        DUBIRU PART
        CHORUS 2 (big modifications)

*I ONLY ADDED THE BASS, YOU INVENT YOUR OWN STYLE/RYTHM OR PICKING.

LEGEND
4/3 - SLIDE TO
3/4 - SLIDE FRO
0/2 - HAMMER TO
0 - OPEN STRING

INTRO: G  F#m Em - A - D G F#m - Bm Em - A - D

E|----------2-2--2-----------------------------------------------2---------|
B|--------------------5--3--5--2--2------------2--3--5--3/5----------------|
G|---2--4-----------------------------4--2--4------------------------------|
D|-----------------------------------------------------------------0-------|
A|-------------------------------------------------------0-----------------|
E|-------3--------3---------2------2--------0------------------------------|

E|---------2--2--2--2-------------------------------------------2----------|
B|---3--5---------------5--3--2--3/5--3-----3-----2--3--5------------------|
G|--------------------------------------------------4----------------------|
D|----------------------------------------------------------------0--------|
A|----------------------------------------2------------0-------------------|
E|-------------------------------------------------------------------------|
Tap to rate this tab
# A B C D E F G H I J K L M N O P Q R S T U V W X Y Z