Song name
# A B C D E F G H I J K L M N O P Q R S T U V W X Y Z

Misc Soundtrack - The Vow - Channing Tatum Guitar Solo Part tab

Hey I'd like to show you tab of Channing Tatum solo
It was presented in The Vow (after the wedding scene)

  C                  e/C
E|-----------------|------------------|
H|-----1-1-3-3-1-1-|----- 1-1-3-3-1-1-|
G|-----0-0-0-0-0-0-|------0-0-0-0-0-0-|
D|-----2-2-2-2-2-2-|------2-2-2-2-2-2-|
A|---3-------------|-3-2--------------|
E|-----------------|------------------|
  a                  G
E|-----------------|------------------|
H|-----1-1-3-3-1-1-|-----3-3-0h3------|
G|-----2-2-2-2-2-2-|-----0-0-0--------|
D|-----2-2-2-2-2-2-|-----0-0-0--------|
A|-2-0-------------|-0-2--------------|
E|-----------------|------------------|
  C                 e/C
E|-----------------|------------------|
H|-----1-1-3-3-1-1-|----- 1-1-3-3-1-1-|
G|-----0-0-0-0-0-0-|------0-0-0-0-0-0-|
D|-----2-2-2-2-2-2-|------2-2-2-2-2-2-|
A|---3-------------|-3-2--------------|
E|-----------------|------------------|
  a                  G
E|-----------------|------------------|
H|-----1-1-0-1-0-1-|-----3-3-0h3------|
G|-----2-2-2-2-2-2-|-----0-0-0--------|
D|-----2-2-2-2-2-2-|-----0-0-0--------|
A|-2-0-------------|-0-2--------------|
E|-----------------|------------------|

And it's all he played....

by B.Surmacz from Poland :D
Tap to rate this tab
# A B C D E F G H I J K L M N O P Q R S T U V W X Y Z