Song name
# A B C D E F G H I J K L M N O P Q R S T U V W X Y Z

Misc Soundtrack - The Beyond Theme tab

The Beyond.

Hi!This is a creepy theme from Lucio Fulci's film,
The Beyond. 

I transcribed it from piano to the guitar for these who may
not play piano.

e:-------------12--11---------17--15-9--8--14--13--------11-------|
b:---------12---------11--15----------------------11--10----------|
G:--9--12---------------------------------------------------------| 
D:----------------------------------------------------------------|
A:----------------------------------------------------------------|
E:----------------------------------------------------------------|


e:----------12--17--16--11----18-----16------15--14--19--18--13---|
b:--10--13-----------------15-----14----16------------------------|
G:----------------------------------------------------------------|
D:----------------------------------------------------------------| 
A:----------------------------------------------------------------|
E:----------------------------------------------------------------|

e:---------------------------13--11-------------------------------|
b:-------------13-12-----11----------10--9--15--14----------12----|
G:---------12---------11----------------------------11--10--------| 
D:--10--13--------------------------------------------------------|
A:----------------------------------------------------------------|
E:----------------------------------------------------------------|

e:-------------13------------14-------------------15--14----------|
b:----------------17--12--------------17------15----------14------|
G:-----13--17-------------15-----14-------16----------------------| 
D:--15------------------------------------------------------------|
A:----------------------------------------------------------------|
E:----------------------------------------------------------------|

Structure

riff 1 x 2

Riff 2 x 2 

Riff 1 x 2

Riff 2 x 2

Riff 3 x 2

Riff 4 x 2

Riff 1 x 2 

Riff 1 x 2

Riff 2 x 2

Riff 1 x 1

Riff 3 x 2

Riff 4 x 2

Riff 3 x 2 Fade Out!

Take care and don't have nightmares.

Fluoxetine.
Tap to rate this tab
# A B C D E F G H I J K L M N O P Q R S T U V W X Y Z