Song name
# A B C D E F G H I J K L M N O P Q R S T U V W X Y Z

Misc Soundtrack - The Evil Dead - Introduction tab

Hello.Thought I would tab the creepy piano part from my favorite 
horror film,The Evil Dead.I actually play it on piano so 
transcribed it for guitarists to play.

This part plays when Scotty first goes into the tool shed on
arriving at the cabin.


e:-------------------11-10----------------------------------|
b:--------------------------12-11---------------------------|
G:-----7--------7-------------------11-10-------------------| 
D:---5---5----5---5-------------------------13-12-9-8-5-4---|
A:-3--------3-----------------------------------------------|
E:----------------------------------------------------------|


e:-------------------18-17-14-------------------------------|
b:-----------------------------18-16-15---------------------|
G:------2--------2-----------------------15--14-------------| 
D:-----------------------------------------------16-15-13-12|
A:---2----2----2---2----------------------------------------|
E:-0---------0----------------------------------------------|


e:---------------------------15-15-15-15-----------19-19-19-|
b:-------------------8--7-----------------13---15-----------|
G:----------------------------------------12--14------------| 
D:------1--------1---8--7-----------------------------------|
A:--2-------2-----------------------------------------------|
E:----2---2----2---2----------------------------------------|

The End.

Fluoxetine.
Tap to rate this tab
 
# A B C D E F G H I J K L M N O P Q R S T U V W X Y Z