Song name
# A B C D E F G H I J K L M N O P Q R S T U V W X Y Z

Misc Soundtrack - Requiem For A Dream Theme tab

If you have questions feel free to ask.

E|-------------------------|-------------------------|
B|-11-10-------11-10-------|-11-10-------13-11-10-11-|
G|-------12----------12----|-------12----------------| 
D|---------12----------12--|---------12--------------|
A|-------------------------|-------------------------|
E|-------------------------|-------------------------|


This part you are playing all the time. Then the violin starts.


E|-18-15--18-15--18-15--18-15--18-15-|-18-15--18-15--18-15--18-15--18-15-|
B|-----------------------------------|-----------------------------------|
G|-----------------------------------|-----------------------------------|
D|-----------------------------------|-----------------------------------|
A|-----------------------------------|-----------------------------------|
E|-----------------------------------|-----------------------------------|



E|-19-18--19-18--19-18--19-18--19-18-|-19-18--19-18--19-18--19-18--19-18-|
B|-----------------------------------|-----------------------------------|
G|-----------------------------------|-----------------------------------|
D|-----------------------------------|-----------------------------------|
A|-----------------------------------|-----------------------------------|
E|-----------------------------------|-----------------------------------|



E|-18-15--18-15--18-15--18-15--18-15-|-18-15--18-15--18-15--18-15--18-15-|
B|-----------------------------------|-----------------------------------|
G|-----------------------------------|-----------------------------------|
D|-----------------------------------|-----------------------------------| x2
A|-----------------------------------|-----------------------------------|
E|-----------------------------------|-----------------------------------|

__________________________________________________________________________


From now the song is faster (almost twice as fast). 

E|--------------------------|--------------------------|
B|-11-11--10-10-------------|-11-11--10-10-------------|
G|--------------12-12-------|--------------12-12-------|
D|--------------------12-12-|--------------------12-12-|
A|--------------------------|--------------------------|
E|--------------------------|--------------------------|
                                                       \
                                                        x4
                                                       /
E|--------------------------|--------------------------|
B|-11-11--10-10-------------|-13-13-11-11-10-10-11-11--|
G|--------------12-12-------|--------------------------|
D|--------------------12-12-|--------------------------|
A|--------------------------|--------------------------|
E|--------------------------|--------------------------|


After that you play the same "high" part again


E|-18-15--18-15--18-15--18-15--18-15---|-18-15--18-15--18-15--18-15--18-15-|
B|-------------------------------------|-----------------------------------|
G|-------------------------------------|-----------------------------------|
D|-------------------------------------|-----------------------------------|
A|-------------------------------------|-----------------------------------|
E|-------------------------------------|-----------------------------------|
                                                                        \
                                                                         x2
                                                                        /    
E|-19-18-18--19-18-19-18--19-18--19-18-|-19-18--19-18--19-18--19-18--19-18-|
B|-------------------------------------|-----------------------------------|
G|-------------------------------------|-----------------------------------|
D|-------------------------------------|-----------------------------------|
A|-------------------------------------|-----------------------------------|
E|-------------------------------------|-----------------------------------|


                                   THEN


E|-19-19--18-18--15---19-19-19--18-18-18--15---19-19-19--18-18-18--15--|
B|---------------------------------------------------------------------|
G|---------------------------------------------------------------------|
D|---------------------------------------------------------------------|
A|---------------------------------------------------------------------|
E|---------------------------------------------------------------------|
                                   \
                                    x2
                                   /
E|-15-15-15--18-18-18-18--19-19-19-|
B|---------------------------------|
G|---------------------------------|
D|---------------------------------|
A|---------------------------------|
E|---------------------------------|


___________________________________________________________________________



E|-------------------------|-------------------------|
B|-11-10-------11-10-------|-11-10-------13-11-10-11-|
G|-------12----------12----|-------12----------------| 
D|---------12----------12--|---------12--------------|
A|-------------------------|-------------------------|
E|-------------------------|-------------------------|
Tap to rate this tab
# A B C D E F G H I J K L M N O P Q R S T U V W X Y Z