Song name
# A B C D E F G H I J K L M N O P Q R S T U V W X Y Z

Misc Soundtrack - The Magnificent Seven Theme tab

e---5-5-3-1-1-1-5-3-----5-5-3-1-1-1-5-3-5-8-10-6-3--------------
b-5-------------------5-----------------------------------------
g---------------------------------------------------------------
d---------------------------------------------------------------
a---------------------------------------------------------------
e---------------------------------------------------------------


e---5-5-3-1-1-1-5-3-----5-5-3-1-1-1-5-3-5-8-10-6-3--------------
b-5-------------------5-----------------------------------------
g---------------------------------------------------------------
d---------------------------------------------------------------
a---------------------------------------------------------------
e---------------------------------------------------------------

Thats it over and over
Tap to rate this tab
# A B C D E F G H I J K L M N O P Q R S T U V W X Y Z