Song name
# A B C D E F G H I J K L M N O P Q R S T U V W X Y Z

Misc Soundtrack - Resident Evil 2 Theme tab

This is the end theme(rythm only sorry) For Resident Evil 2, the GOOD ENDING.
Hope you enjoy, this is very open for improve!
(Taken From The Resident Evil orchestra album)


MAIN RIFF (Play a few times, like I said fun to improvise)
E----------------------------------------------------
B----------------------------------------------------
G----------------------------------------------------
D----------------------------------------------------
A-/--2-2-2-2---4-5-x-x-4-5-x-x-4-5-5-5---------5--3--
E-/--0-0-0-0---2-3-x-x-2-3-x-x-2-3-3-3----3h5-------5


E-----------------------------------------
B-----------------------------------------
G-----------------------------------------
D-----------------------------------------
A----2--7PH--4-5--4-5--4-5-5-5------------
E----0-------2-3--2-3--2-3-3-3------------


Fast Behind Bridges
E------------------------------------------------------
B------------------------------------------------------
G------------------------------------------------------
D------------------------------------------------------
A---9-x-x-9-x-x-9-x-x-9-x-x-10-x-x-10-x-x-10-x-x-10-x-x
E---7-x-x-7-x-x-7-x-x-7-x-x-8--x-x-8--x-x-8--x-x-8--x-x
 
Well thats about all, E-Mail me if ya got any ideas, or no more,
Sorry there isn't much else on this!

WILDMAN

Wildman3j@yahoo.com
Tap to rate this tab
 
# A B C D E F G H I J K L M N O P Q R S T U V W X Y Z