Song name
# A B C D E F G H I J K L M N O P Q R S T U V W X Y Z

Misc Soundtrack - The Hunger Games - Rues Whistle tab

First Tab sounds pretty much spot on

very haunting... enjoy

----------------|
----6-----------|
-7------9-------|
-----------7----|
----------------|
----------------|


----------------|
----6-----------|
-7------9-------|
-----------7----|
----------------|
----------------|

----------------|
----6-----------|
-7------9-------|
-----------7----|
----------------|
----------------|
Tap to rate this tab
# A B C D E F G H I J K L M N O P Q R S T U V W X Y Z