Song name
# A B C D E F G H I J K L M N O P Q R S T U V W X Y Z

Misc Soundtrack - Jaws - End Titles tab

Those of you who love the film Jaws, I bet you're more familiar with the infamous bass riff.
I wonder if you know that sweet melody which is played through the end credits.


e|-10--9---7---5-------10--9---7---5---3---0---------------|
B|---------------------------------------------------------|
G|---------------------------------------------------------|
D|---------------------------------------------------------|
A|---------------------------------------------------------|
E|---------------------------------------------------------|

e|-------------0-------2-3-5-2-0---------------0-3-2-0-7-5-|
B|-----3-------------------------------3-------------------|
G|-2-------2-------2---------------2-------2---------------|
D|---------------------------------------------------------|
A|---------------------------------------------------------|
E|---------------------------------------------------------|x2

e|-10--9---7---5-------10--9---7---5---|
B|-------------------------------------|
G|-------------------------------------|
D|-------------------------------------|
A|-------------------------------------|
E|-------------------------------------|

e|-5---0-2-3---5---2---0-----|
B|-----------------------3---|
G|---------------------------|
D|---------------------------|
A|---------------------------|
E|---------------------------|

End on this note;

e|---------------------------|
B|-3-------------------------|
G|---------------------------|
D|---------------------------|
A|---------------------------|
E|---------------------------|
Tap to rate this tab
 
# A B C D E F G H I J K L M N O P Q R S T U V W X Y Z