Song name
# A B C D E F G H I J K L M N O P Q R S T U V W X Y Z

Misc Soundtrack - The Hired Hand - Leaving Del Norte tab

Artist: Bruce Langhorne 
Tabbed By Reedoo
Tuning: Standard



e|--------0--------|--------0----5--|--------0-------|--0--0--0--0-----------|
B|------10-----10--|------8---------|------6----6----|--5--5--5--5-----------|
G|----7------------|----5-----------|----3--------3--|--2--2--2--2-----------|
D|--0--------------|--0-------------|--0-------------|--0--0--0--0-----------|
A|-----------------|----------------|----------------|-----------------------|
E|-----------------|----------------|----------------|-----------------------|


e|--------0--------|--------0-5-----|--------0-------|--0--0--0--0--0--0-----|
B|------10-----10--|------8-----8---|------6-------6-|--5--5--5--5--5--5-----|
G|----7------------|----5---------5-|----3-----3-----|--2--2--2--2--2--2-----|
D|--0--------------|--0-------------|--0---------0---|--0--0--0--0--0--0-----|
A|-----------------|----------------|----------------|-----------------------|
E|-----------------|----------------|----------------|-----------------------|
Tap to rate this tab
 
# A B C D E F G H I J K L M N O P Q R S T U V W X Y Z