Song name
# A B C D E F G H I J K L M N O P Q R S T U V W X Y Z

Misc Soundtrack - Harry Potter Theme tab

key:  p= pull off


------------------------------------------------------------------------|
------------------------------------------------------------------------|
------------------------------------------------------------------------|
------------9-7------6-5----5----------------9-12-11-10---10--9p8---9---|
----10-9-7-----9--7------5-----2-----10-9-7-------------11--------9---7-|
--8-------------------------------7-------------------------------------|

------------9-7------6-5----5----------------9-12-11-10---10--9p8---9---|
----10-9-7-----9--7------5-----2-----10-9-7-------------11--------9---7-|
--8-------------------------------7-------------------------------------|
------------------------------------------------------------------------|
------------------------------------------------------------------------|
------------------------------------------------------------------------|

------------------------------------------------------------------------|
----------------------------------------19------------------------------|
---12---12---15-14-13----13--12p11---12--------12----12----19-18-17-----|
--12--12---12----------12----------11--------12----12----12----------17-|
------------------------------------------------------------------------|
------------------------------------------------------------------------|

-----------------------------------------------------------------------|
-----------------------------------------------------------------------|
---17-16p15---20-17----------------------------------------------------|
------------14---------------------------------------------------------|
-----------------------------------------------------------------------|
-----------------------------------------------------------------------|
Tap to rate this tab
# A B C D E F G H I J K L M N O P Q R S T U V W X Y Z