Song name
# A B C D E F G H I J K L M N O P Q R S T U V W X Y Z

Misc Soundtrack - Addams Family Theme tab

I find this capo version to sound really good and makes it easier to play than in the original key.
I'm not sure if it goes in the same order as the tune but you'll get the idea. Enjoy.


CAPO 1st FRET

                  A                      Bm7
e|---------------------------------------------------------------------|
B|-----------------2---2---------------------3---3---------------------|
G|-----------------2---2---------------------2---2---------------------|
D|-----------------2---2---------------------4---4---------------------|
A|-----------0---------------------0-1-2-------------------------------|
E|----0h2h4----------------------3-------------------------------------|

                                          A
e|---------------------------------------------------------------------|
B|----------------------------------------2----------------------------|
G|----------------------------------------2----------------------------|
D|----------------------------------------2----------------------------|
A|----0-1-2--------0-1-2-------------0---------------------------------|
E|--3-----------3-------------0h2h4------------------------------------|


           A                     Bm7
e|---------------------------------------------------------------------|
B|------------2---------------------3----------------------------------|
G|---------------2------------------2----------------------------------|
D|-----2------------2---------------4----------------------------------|
A|--0----------------------------2-------------------------------------|
E|---------------------------------------------------------------------|


 
          E                      A
e|---------------------------------------------------------------------|
B|------------1----------------------2---------------------------------|
G|---------------2-------------------2---------------------------------|
D|------------------2----------------2---------------------------------|
A|-------2-----------------------0-------------------------------------|
E|----0----------------------------------------------------------------|

           A                     Bm7
e|---------------------------------------------------------------------|
B|------------2---------------------3----------------------------------|
G|---------------2------------------2----------------------------------|
D|-----2------------2---------------4----------------------------------|
A|--0----------------------------2-------------------------------------|
E|---------------------------------------------------------------------|

             E
e|---------------------------------------------------------------------|
B|---0---------------0-------------------------------------------------|
G|------1---------1----------------------------------------------------|
D|-------------2-------------------------------------------------------|
A|----------2----------------------------------------------------------|
E|---------------------------------------------------------------------|
                  A                      Bm7
e|---------------------------------------------------------------------|
B|-----------------2---2---------------------3---3---------------------|
G|-----------------2---2---------------------2---2---------------------|
D|-----------------2---2---------------------4---4---------------------|
A|-----------0---------------------0-1-2-------------------------------|
E|----0h2h4----------------------3-------------------------------------|
                                          A
e|---------------------------------------------------------------------|
B|----------------------------------------2----------------------------|
G|----------------------------------------2----------------------------|
D|----------------------------------------2----------------------------|
A|----0-1-2--------0-1-2-------------0---------------------------------|
E|--3-----------3-------------0h2h4------------------------------------|


Tap to rate this tab
# A B C D E F G H I J K L M N O P Q R S T U V W X Y Z