Song name
# A B C D E F G H I J K L M N O P Q R S T U V W X Y Z

Misc Soundtrack - The Hunger Games Theme tab

Tuning: Standard
This is the theme from the Hunger Games movie's opening scene (not the mockingjay
call) by James Newton Howard from the Score. Enjoy

------------------------------|
--------------3-----3-------0-|
----------0------0------2-----|  x2
------------------------------|
------------------------------|
----------3-------------3-----|

-----------------------------------|
---------------1-------1-----------|
----------0--------0--------0------|x2
---------------------------------2-|
-----------------------------------|
----------1-----------------1----1-|


------------------------------|
--------------3-----3-------0-|
----------0------0------2-----|
------------------------------|
------------------------------|
----------3-------------3-----|
http://www.myspace.com/jamesnewtonhoward
Tap to rate this tab
 
# A B C D E F G H I J K L M N O P Q R S T U V W X Y Z