Song name
# A B C D E F G H I J K L M N O P Q R S T U V W X Y Z

Misc Soundtrack - Tales From The Crypt Theme tab

Tales from the crypt theme
Tabber: offsetnate@yahoo.com

figure 1
|---------------------------------------------|
|----------13-12------------------------------|
|----12-15-------12----------------12---------|
|-14----------------14----------14----10-9-12-|
|----------------------15-14-15---------------|
|---------------------------------------------|

figure 1 (continued)
|--------------------------------------|
|--------------------------------------|
|-10-12-14-16-17-16-14-----------------|
|----------------------17-16-14-13-14--|
|--------------------------------------|
|--------------------------------------|
That's pretty much it, it's pretty easy
so just play around with it some.
Tap to rate this tab
 
# A B C D E F G H I J K L M N O P Q R S T U V W X Y Z