Song name
# A B C D E F G H I J K L M N O P Q R S T U V W X Y Z

Misc Soundtrack - Saved By The Bell Theme tab

Misc Soundtrack
Saved By The Bell Theme
Tuning: Standard
Transcribed by Soch Hean

Verse:
        D
When I wake up in the morning

And the clock lets out a warning
                    A
I don't think I'll ever make it on time
       D
By the time I got my books I give myself a look
             F                             E
I'm at the corner just in time to see the bus fly by

Chorus:
G    D    E                          A
It's alright 'cause I'm saved by the bell

(Play at the end of the 1st chorus)  (0:18)
|-------5-------5-------5--------------------------------------|
|-----5-------5-------5----------------------------------------|
|-7b9-----7b9-----7b9-----7b9-5b5.5----------------------------|
|-----------------------------------7~-------------------------|
|--------------------------------------------------------------|
|--------------------------------------------------------------|

Verse 2:
         D
If the teacher pops a test I know I'm a mess
        A
And my dog ate all my homework last night
        D
Ridin' low in my chair she won't know that I'm there
          F                        E
If I can hand it in tomorrow it'll be alright

Chorus:
G    D    E                          A
It's alright 'cause I'm saved by the bell

Guitar Solo: (0:38)
|-15-----15-15-----15-15-----15--15----15-15----15-15----15-15----15-|
|-15b17-----15b17-----15b17------15b17----15b17----15b17----15b17----|
|--------------------------------------------------------------------|
|--------------------------------------------------------------------|
|--------------------------------------------------------------------|
|--------------------------------------------------------------------|

|-15----15--------15----15-----------------------------------------------------|
|-15b17----15b17--15b17------17s15p13-15----15b17-15-13----15b17-13b13.5-------|
|----------------------------------------14-------------14---------------14~\--|
|------------------------------------------------------------------------------|
|------------------------------------------------------------------------------|
|------------------------------------------------------------------------------|

|-----10----10----10-10---/13--13-13-13-15-13-13-13----12-----12--12-----12--|
|-----10----10----10-10---/13--13-13-13-13-13-13-13----15b17------15b17------|
|-/11----11----11------------------------------------------------------------|
|----------------------------------------------------------------------------|
|----------------------------------------------------------------------------|
|----------------------------------------------------------------------------|

|-12----12-15-17-18-18b=19~~--|
|-15b17-----------------------|
|-----------------------------|
|-----------------------------|
|-----------------------------|
|-----------------------------|

Chorus:
G    D    E
It's alright 'cause I'm saved by the bell
G    D    E
It's alright 'cause I'm saved by the bell
G    D    E                          A
It's alright 'cause I'm saved by the bell

Outro:
|---------------5\\--------|
|---------------5\\--------|
|-7b9rp5-7-5---------------|
|------------7-------------|
|--------------------------|
|--------------------------|

Chords:
D:   xx0232
G:   320033
E:   022100
A:   x02220
F:   133211

Legend:
b - bend
r - release
p - pulloff
~ - vibrato
s - slide
Tap to rate this tab
 
# A B C D E F G H I J K L M N O P Q R S T U V W X Y Z