Song name
# A B C D E F G H I J K L M N O P Q R S T U V W X Y Z

Misc Soundtrack - Concerning Hobbits tab

 |--------PM------------|
e|-----------------------|
B|-----3--------3--------|
G|---2---2----2---2------|
D|-0--------0------------|
A|-----------------------|
E|-----------------------|

e|----------------------------------------------------------------|
B|--3h5-7--10--7--5h7p5--3-------7--10--12--15--14--10--7--8h7--5-|
G|--------------------------------------0-------------------------|
D|--0-------------0---------0-0--0------------------0------0----7-|
A|----------------------------------------------------------------|
E|----------------------------------------------------------------|

e|-------------------------------------------------------|
B|--3h5-7--10--7/5--3--3h5p3---7--10--12----12--10--7--5-|
G|------------------------------------0--00--------------|
D|--0---------------0----------0----------------0------7-|
A|-------------------------------------------------------|
E|-------------------------------------------------------|

 |--------PM------------|
e|-----------------------|
B|-----3--------3--------|
G|---2---2----2---2------|
D|-0--------0------------|
A|-----------------------|
E|-----------------------|


That's it for now :( however I will be adding the rest on at a later date,
So enjoy for now!!

Tabbed by Jackoffmcrackof.
Tap to rate this tab
# A B C D E F G H I J K L M N O P Q R S T U V W X Y Z